Bass tablature for "Almost Forgot Myself" by "Doves"

This tablature is awaiting approval. Log in or register to take part in the approval process.

Artist: Doves
Piece: Almost Forgot Myself
Instrument: Bass
Submitter: jasiugm
Tab provided by tTabs

Votes for approval

This Almost Forgot Myself bass tab has a net 1 vote for its approval


Doves - Almost Forgot Myself
Some Cities (2005)
Bassist: Jimi Goodwin
Tabbed by Mariusz JasiƄski


 Main Part
G|----------------------------------------------------|
D|----------------------------------------------------|
A|-9-9-79-97----------------7-7-67-79-7h9-------6-7-8-|
E|----------975-5-45-5-7-7h9-------------7-7-67-------|

G|----------------------------------------------------|
D|----------------------------------------------------|
A|-9-9-79-97----------------7-7-67-79-7h9-------------|
E|----------975-5-45-5-7-7h9-------------7-7-67-75402-|

 Varse                                          x2
G|-----------------------------------------------|
D|-----------------------------------------------|
A|--9-9--9-9---7-7--7-7---9-9--9--9-9-7-7--7-7---|
E|-9----9---9-7----7---7-9----9----9-9----7----7-|
 
G|-------------------------------------------------------|
D|------------------------------------42222222222222222--|
A|-45-5-45-/54-4--------------------42-------------------|
E|--------------7-7-67-75402-2-02-2----------------------|
 
 Chorus
G|-----------------------------------------------------------|
D|------------------------------------------------99999------|
A|-5----------7---5--------4---5----------7---5------------7-|
E|--------5-------------5-------------5----------------5-----|

 2nd Verse                                     x2
G|-----------------------------------------------|
D|-----------------------------------------------|
A|--9-9--9-9---7-7--7-7---9-9--9--9-9-7-7--7-7---|
E|-9----9---9-7----7---7-9----9----9-9----7----7-|

G|-------------------------------------------------------|
D|------------------------------------42222444466669999--|
A|-45-5-45-/54-4--------------------42-------------------|
E|--------------7-7-67-75402-2-02-2----------------------|

 Chorus
G|-----------------------------------------------------------|
D|------------------------------------------------999999999--|
A|-5------5---7---5--------4---5----------7---5--------------|
E|----------------------5-------------5----------------------|

 3:25
G|--------------------------------------------------------|
D|--------------------------------------------------------|
A|-9-9-79-97----------------7-7-67-79-7h9-----------------|
E|----------975-5-45-5-7-7h9-------------7777777777777777-|

 Chorus                        x2
G|------------------------------|
D|------------------------------|
A|-5----------7---5--------4----|
E|--------5-------------5-------|


G|-------------------------------------------------|
D|--------------------------------9----------------|
A|-5---555555----------5----555555-----------------|
E|-----------7---777777----------------7777772-----|

:)