Guitar tablature for "Short Change Hero" by "The Heavy"

This tablature is awaiting approval. Log in or register to take part in the approval process.

Artist: The Heavy
Piece: Short Change Hero
Instrument: Guitar
Submitter: will-lewiz
Tab provided by tTabs

Votes for approval

This Short Change Hero guitar tab has a net 0 votes for its approval


E---------------------------------------------|-----------------------------------------------
B---------------------------------------------|-----------------------------------------------
G--9---9--------------9-----------------------|---9----9--------------------------------------
D--11-------------11-----------------------X3-|---11---------------11-------------------------
A--11---------11---------11-------------------|---11-----------11-------9---------------------
E---------------------------------------------|-----------------------------------------------

E---------------------------------------------|-----------------------------------------------
B---------------------------------------------|-----------------------------------------------
G--8---8--------------8-----------------------|---6----6--------------6-----------------------
D--9-------------9----------------------------|---8---------------8---------------------------
A--9---------9--------------------------------|---9-----------9-------------------------------
E---------------------------------------------|-----------------------------------------------

E---------------------------------------------|
B---------------------------------------------|
G--9---9--------------9-----------------------|
D--11-------------11--------------------------|
A--11---------11---------11-------------------|
E---------------------------------------------|

This is my first tab, pretty sure its about 95% correct.
Enjoy! will-lewiz@hotmail.com