Bass tablature for "Home Sick Home" by "Faith No More"

This tablature is awaiting approval. Log in or register to take part in the approval process.

Artist: Faith No More
Piece: Home Sick Home
Instrument: Bass
Submitter: jasiugm
Tab provided by tTabs

Votes for approval

This Home Sick Home bass tab has a net 1 vote for its approval


Faith No More - Home Sick Home
Album Of The Year (1997)
Bassist - Billy Gould
Tabbed by Mariusz JasiƄski

~ - vibrato

 Main riff
G|-------------------------|
D|-------------------------|
A|-7--6--5-----------------|
E|---0-----7-6~--05-03~-00-|

 Verse
G|-------------------------------------|
D|-------------------------------------|
A|-----7-77-----7-77-----9-99-----9-99-|
E|-2-2------2-2------4-4------4-4------|

"drive me home..."
G|-----------------------------| x4
D|-----------------------------|
A|----------------666666666666-|
E|-3-5-3-0-------6-------------|

G|--------------------------|
D|--------------------------|
A|--66666666666-66666666666-|
E|-6-----------6------------|

 Ending
G|---------------|
D|---------------|
A|-7--6--5-------|
E|---0-----7-6---|

:)