Guitar tablature for "One Last Breath" by "Creed"

This tablature is awaiting approval. Log in or register to take part in the approval process.

Artist: Creed
Piece: One Last Breath
Instrument: Guitar
Submitter: unknown
Tab provided by tTabs

Votes for approval

This One Last Breath guitar tab has a net 1 vote for its approval


Title: One last breath
Band: Creed
Album: Weathered

(This is my first tab.)

E|-2----5----0h2------------------------------------------------|
B|----------------3-----2-3-3h5---5h2p3-2-3------3--2h3---------|
G|------------------2-------------------------------------------|
D|-0-0----0-----------0-----------------------------------------|
A|----------------------0-------0-------------0-----------------|
E|--------------------------------------------------------------|

E|------------------------------------------------3—2|
B|------3-----2h3---------------------------3--------|
G|4---------------------4------------0---------2-----|
D|--------------------------4-----0-----0------------|
A|---2-----2-----------------------------------------|
E|------------------------------3--------------------|

E|-2------3-----2--0h2p0---------------------------------------------------|
B|--------3---------------3--------------2--2h3p2--------------------------|
G|------------------------------------2------------2-----------------------|
D|-0---0-----0---------------------2---------------------------------------|
A|----------------------------4-0------------------------------------------|
E|-------------------------------------------------------------------------|

E|----------------------2------------------------------3-------------|
B|-------------------2-----2------------------------------3----------|
G|----0----------4-------------4------------------0----------0-------|
D|-4---------4---------------------0----------0----------------0-----|
A|-------2--------------------------------2--------------------------|
E|------------------------------------3------------------------------|

E|-2----5----0h2------------------------------------------------|
B|----------------3-----2-3-3h5---5h2p3-2-3------3--2h3---------|
G|------------------2-------------------------------------------|
D|-0-0----0-----------0-----------------------------------------|
A|----------------------0-------0-------------0-----------------|
E|--------------------------------------------------------------|

E|------------------------------------------------3—2|
B|------3-----2h3---------------------------3--------|
G|4---------------------4------------0---------2-----|
D|--------------------------4-----0-----0------------|
A|---2-----2-----------------------------------------|
E|------------------------------3--------------------|

E|-2------3-----2--0h2p0---------------------------------------------------|
B|--------3---------------3--------------2--2h3p2--------------------------|
G|------------------------------------2------------2-----------------------|
D|-0---0-----0---------------------2---------------------------------------|
A|----------------------------4-0------------------------------------------|
E|-------------------------------------------------------------------------|

E|----------------------2------------------------------3-------------|
B|-------------------2-----2------------------------------3----------|
G|----0----------4-------------4------------------0----------0-------|
D|-4---------4---------------------0----------0----------------0-----|
A|-------2--------------------------------2--------------------------|
E|------------------------------------3------------------------------|

E|-2----5----0h2------------------------------------------------|
B|----------------3-----2-3-3h5---5h2p3-2-3------3--2h3---------|
G|------------------2-------------------------------------------|
D|-0-0----0-----------0-----------------------------------------|
A|----------------------0-------0-------------0-----------------|
E|--------------------------------------------------------------|

E|------------------------------------------------3—2|
B|------3-----2h3---------------------------3--------|
G|4---------------------4------------0---------2-----|
D|--------------------------4-----0-----0------------|
A|---2-----2-----------------------------------------|
E|------------------------------3--------------------|

E|-2------3-----2--0h2p0---------------------------------------------------|
B|--------3---------------3--------------2--2h3p2--------------------------|
G|------------------------------------2------------2-----------------------|
D|-0---0-----0---------------------2---------------------------------------|
A|----------------------------4-0------------------------------------------|
E|-------------------------------------------------------------------------|

E|----------------------2------------------------------3-------------|
B|-------------------2-----2------------------------------3----------|
G|----0----------4-------------4------------------0----------0-------|
D|-4---------4---------------------0----------0----------------0-----|
A|-------2--------------------------------2--------------------------|
E|------------------------------------3------------------------------|

E|----------------------3----strum-----------------------------|
B|---------------2------3---------patterns---------------------|
G|-7------3------4------4------------------not-----------------|
D|-7------4------4------5----------------------shown-----------|
A|-5------4------2------5--------------------------------------|
E|--------2-------------3--------------------------------------|

E|----------------------3--------------------------------------|
B|---------------2------3--------------------------------------|
G|-7------3------4------4--------------------------------------|
D|-7------4------4------5--------------------------------------|
A|-5------4------2------5--------------------------------------|
E|--------2-------------3--------------------------------------|

E|-2----5----0h2------------------------------------------------|
B|----------------3-----2-3-3h5---5h2p3-2-3------3--2h3---------|
G|------------------2-------------------------------------------|
D|-0-0----0-----------0-----------------------------------------|
A|----------------------0-------0-------------0-----------------|
E|--------------------------------------------------------------|

E|------------------------------------------------3—2|
B|------3-----2h3---------------------------3--------|
G|4---------------------4------------0---------2-----|
D|--------------------------4-----0-----0------------|
A|---2-----2-----------------------------------------|
E|------------------------------3--------------------|

E|-2------3-----2--0h2p0---------------------------------------------------|
B|--------3---------------3--------------2--2h3p2--------------------------|
G|------------------------------------2------------2-----------------------|
D|-0---0-----0---------------------2---------------------------------------|
A|----------------------------4-0------------------------------------------|
E|-------------------------------------------------------------------------|

E|----------------------2------------------------------3-------------|
B|-------------------2-----2------------------------------3----------|
G|----0----------4-------------4------------------0----------0-------|
D|-4---------4---------------------0----------0----------------0-----|
A|-------2--------------------------------2--------------------------|
E|------------------------------------3------------------------------|

E|-2----5----0h2------------------------------------------------|
B|----------------3-----2-3-3h5---5h2p3-2-3------3--2h3---------|
G|------------------2-------------------------------------------|
D|-0-0----0-----------0-----------------------------------------|
A|----------------------0-------0-------------0-----------------|
E|--------------------------------------------------------------|

E|------------------------------------------------3—2|
B|------3-----2h3---------------------------3--------|
G|4---------------------4------------0---------2-----|
D|--------------------------4-----0-----0------------|
A|---2-----2-----------------------------------------|
E|------------------------------3--------------------|

E|-2------3-----2--0h2p0---------------------------------------------------|
B|--------3---------------3--------------2--2h3p2--------------------------|
G|------------------------------------2------------2-----------------------|
D|-0---0-----0---------------------2---------------------------------------|
A|----------------------------4-0------------------------------------------|
E|-------------------------------------------------------------------------|

E|----------------------2------------------------------3-------------|
B|-------------------2-----2------------------------------3----------|
G|----0----------4-------------4------------------0----------0-------|
D|-4---------4---------------------0----------0----------------0-----|
A|-------2--------------------------------2--------------------------|
E|------------------------------------3------------------------------|

E|-2----5----0h2------------------------------------------------|
B|----------------3-----2-3-3h5---5h2p3-2-3------3--2h3---------|
G|------------------2-------------------------------------------|
D|-0-0----0-----------0-----------------------------------------|
A|----------------------0-------0-------------0-----------------|
E|--------------------------------------------------------------|

E|------------------------------------------------3—2|
B|------3-----2h3---------------------------3--------|
G|4---------------------4------------0---------2-----|
D|--------------------------4-----0-----0------------|
A|---2-----2-----------------------------------------|
E|------------------------------3--------------------|

E|-2------3-----2--0h2p0---------------------------------------------------|
B|--------3---------------3--------------2--2h3p2--------------------------|
G|------------------------------------2------------2-----------------------|
D|-0---0-----0---------------------2---------------------------------------|
A|----------------------------4-0------------------------------------------|
E|-------------------------------------------------------------------------|

E|----------------------2------------------------------3-------------|
B|-------------------2-----2------------------------------3----------|
G|----0----------4-------------4------------------0----------0-------|
D|-4---------4---------------------0----------0----------------0-----|
A|-------2--------------------------------2--------------------------|
E|------------------------------------3------------------------------|
Distortion on
E|----------------------3--------------------------------------|
B|---------------2------3--------------------------------------|
G|-7------3------4------4--------------------------------------|
D|-7------4------4------5--------------------------------------|
A|-5------4------2------5--------------------------------------|
E|--------2-------------3--------------------------------------|

E|----------------------3--------------------------------------|
B|---------------2------3--------------------------------------|
G|-7------3------4------4--------------------------------------|
D|-7------4------4------5--------------------------------------|
A|-5------4------2------5--------------------------------------|
E|--------2-------------3--------------------------------------|

E|----------------------3--------------------------------------|
B|---------------2------3--------------------------------------|
G|-7------3------4------4--------------------------------------|
D|-7------4------4------5--------------------------------------|
A|-5------4------2------5--------------------------------------|
E|--------2-------------3--------------------------------------|

E|----------------------3--------------------------------------|
B|---------------2------3--------------------------------------|
G|-7------3------4------4--------------------------------------|
D|-7------4------4------5--------------------------------------|
A|-5------4------2------5--------------------------------------|
E|--------2-------------3--------------------------------------|
Distortion off
E|--------------------------------------------------------------------|
B|--------------------------------------------------------------------|
G|-4-------------4----------------------------------------------------|
D|-4------5------4------5---------------------------------------------|
A|-2------5------2------5---------------------------------------------|
E|--------3-------------3---------------------------------------------|


E|--------------------------------------------------------------------|
B|--------------------------------------------------------------------|
G|---------7----------------------------------------------------------|
D|-2---5---7----7----9----5-------------------------------------------|
A|-2---5---5----7----9----5-------------------------------------------|
E|-0---3--------5----7----3-------------------------------------------|

E|--------------------------------------------------------------------|
B|--------------------------------------------------------------------|
G|---------7----------------------------------------------------------|
D|-2---5---7----7----9----5-------------------------------------------|
A|-2---5---5----7----9----5-------------------------------------------|
E|-0---3--------5----7----3-------------------------------------------|

E|----------------------3--------------------------------------|
B|---------------2------3--------------------------------------|
G|-7------3------4------4--------------------------------------|
D|-7------4------4------5--------------------------------------|
A|-5------4------2------5--------------------------------------|
E|--------2-------------3--------------------------------------|

E|----------------------3--------------------------------------|
B|---------------2------3--------------------------------------|
G|-7------3------4------4--------------------------------------|
D|-7------4------4------5--------------------------------------|
A|-5------4------2------5--------------------------------------|
E|--------2-------------3--------------------------------------|
Distortion on
E|----------------------3--------------------------------------|
B|---------------2------3--------------------------------------|
G|-7------3------4------4--------------------------------------|
D|-7------4------4------5--------------------------------------|
A|-5------4------2------5--------------------------------------|
E|--------2-------------3--------------------------------------|

E|----------------------3--------------------------------------|
B|---------------2------3--------------------------------------|
G|-7------3------4------4--------------------------------------|
D|-7------4------4------5--------------------------------------|
A|-5------4------2------5--------------------------------------|
E|--------2-------------3--------------------------------------|

E|----------------------3--------------------------------------|
B|---------------2------3--------------------------------------|
G|-7------3------4------4--------------------------------------|
D|-7------4------4------5--------------------------------------|
A|-5------4------2------5--------------------------------------|
E|--------2-------------3--------------------------------------|

E|----------------------3--------------------------------------|
B|---------------2------3--------------------------------------|
G|-7------3------4------4--------------------------------------|
D|-7------4------4------5--------------------------------------|
A|-5------4------2------5--------------------------------------|
E|--------2-------------3--------------------------------------|
Distortion Off
E|-2----5---0h2-----------------------------------------------------------------------3-2|
B|----------------3-----2-3-3h5---5h2p3-2-3----3-2h3-----3---2h3----------------3--------|
G|------------------2--------------------------------4------------4--------0-------2-----|
D|-0-0----0-----------0---------------------------------------------4---0-----0----------|
A|----------------------0-------0-----------0----------2---2-----------------------------|
E|--------------------------------------------------------------------3------------------|