Guitar tablature for "November Rain" by "Guns N Roses"

This tablature is awaiting approval. Log in or register to take part in the approval process.

Artist: Guns N Roses
Piece: November Rain
Instrument: Guitar
Submitter: flolp16
Tab provided by tTabs

Votes for approval

This November Rain guitar tab has a net 0 votes for its approval


Guns N Roses - November Rain Solo
Original

Part1
|--------------------------------|
|-3-5-5b6r5p3--------------------|		
|------------4b5r4--3/5-4b5r4-2--|
|------------------------------5-|
|--------------------------------|
|--------------------------------|

|-------------8--------------------------8----------8----------|
|-8b10-10r8b10-10r8p6-8b10r8b10-8b10r8b10-10r8-5b6-5-5b6r5b6-5-|
|--------------------------------------------------------------|
|--------------------------------------------------------------|
|--------------------------------------------------------------|
|--------------------------------------------------------------|

|---------------------------8--------------------------8-|
|--------8------8b10-10r8b10-10r8p6-8b10r8b10-8b10r8b10--|
|-7p5-7/9-9\7-5------------------------------------------|
|--------------------------------------------------------|
|--------------------------------------------------------|
|--------------------------------------------------------|

|-8b10r8-10b12r10-8h10p8--8-------13p12--13p12--13b15-13-|
|-----------------------10-11b13-------13-----13---------|
|--------------------------------------------------------|
|--------------------------------------------------------|
|--------------------------------------------------------|
|--------------------------------------------------------|

|-10-12-13-12h13p12-10-10--10-12-13b15-13p12-12b13-12--19b20-|
|------------------------------------------------------------|
|------------------------------------------------------------|
|------------------------------------------------------------|
|------------------------------------------------------------|
|------------------------------------------------------------|

|-19-19-19/17-17-17/15-15-15/13-13-13/12-12-12h13p12p10-12b14-|
|-------------------------------------------------------------|
|-------------------------------------------------------------|
|-------------------------------------------------------------|
|-------------------------------------------------------------|
|-------------------------------------------------------------|

|-12-13-12h13p12p10--12--10h12p10--10------------------|
|------------------13--13--------13--12-13-12h13p12p10-|
|------------------------------------------------------|
|------------------------------------------------------|
|------------------------------------------------------|
|------------------------------------------------------|

|-----------------------------------------------------------15------------|
|---12--10-------------------13-----------13-----------15b17--17r15-13b15-|
|-12--12--10-12p10/9--12p10/9---10h12p10/9---10h12p10/9-------------------|
|-------------------------------------------------------------------------|
|-------------------------------------------------------------------------|
|-------------------------------------------------------------------------|

Interlude
|---------------------------------------------------|
|-6p5--------------6b8-6p5-6p5----------------6p5---|
|----5---5h7p5----------------5--5h7---5h7p5-----5--|
|-----7-------7p5--------------7------7-----7-----7-|
|---------------------------------------------------|
|---------------------------------------------------|

Part2
|---------------------------------20---------20------19b20-|
|-----------------------18b--20b22--22r20b22----18-17------|
|-7-9-10-12-14-16-17-19------------------------------------|
|----------------------------------------------------------|
|----------------------------------------------------------|
|----------------------------------------------------------|

|--------------------17---------------------------------------------|
|-19r17b19---17-18-20--18-20-17h18-20-17b18-17b18-15b17r15-13-15p13-|
|----------19-------------------------------------------------------|
|-------------------------------------------------------------------|
|-------------------------------------------------------------------|
|-------------------------------------------------------------------|

|-----15----------15----------15b17-15-13h15p13/12-|
|---13--13-13---13--13-13---13---------------------|
|-14----------14----------14-----------------------|
|--------------------------------------------------|
|--------------------------------------------------|
|--------------------------------------------------|

|-13-12h13p12--12-----15---------|
|------------15--15b17--17r15-13-|
|--------------------------------|
|--------------------------------|
|--------------------------------|
|--------------------------------|