Guitar tablature for "Only The Strong (acoustic)" by "Flaw"

This tablature is awaiting approval. Log in or register to take part in the approval process.

Artist: Flaw
Piece: Only The Strong (acoustic)
Instrument: Guitar
Submitter: swholcomb
Tab provided by tTabs

Votes for approval

This Only The Strong (acoustic) guitar tab has a net 0 votes for its approval


Artist: Flaw
Album: Through The Eyes
Song: Only The Strong (Acoustic Version)
Tabbed by: Spencer Holcomb

Tuning: C-F-B♭-E♭-G-C

INTRO/VERSE:
e|--------------------------------------------------------------------------------|
B|--------------------------------------------------------------------------------|
G|--------------------------------------------------------------------------------|
D|--------------------------------------------------------------------------------|
A|---8-8-8-7----8-8-8-7----8-8-8-7----8-8-8---------------------------------------|
E|-0---------0----------10---------10-------10------------------------------------|

CHORUS:
e|-0--0---0--0--------------------------------------------------------------------|
B|-0--0---0--0--------------------------------------------------------------------|
G|-0--0---0--0--------------------------------------------------------------------|
D|-9--10--5--7--------------------------------------------------------------------|
A|-7--10--5--5--------------------------------------------------------------------|
E|-0--8---3--0--------------------------------------------------------------------|

(^Can be played as single chords or I play as a 5/5 strumming pattern.)

FILL:
e|--------------------------------------------------------------------------------|
B|--------------------------------------------------------------------------------|
G|--------------------------------------------------------------------------------|
D|--------------------------------------------------------------------------------|
A|---8-8-8-7---(Do this part x4 then start back at verse)-------------------------|
E|-0------------------------------------------------------------------------------|

BRIDGE:
e|-0--0---0--0-0--0-0--0--0---0--0-----------------------------------------------|
B|-0--0---0--0-0--0-0--0--0---0--0-----------------------------------------------|
G|-0--0---0--0-0--0-0--0--0---0--0-----------------------------------------------|
D|-9--10--9--4-4--5-5--9--10--7--9-----------------------------------------------|
A|-7--10--7--2-2--3-3--7--10--7--9-----------------------------------------------|
E|-0--8---0--0-0--0-0--0--8---5--7-----------------------------------------------|
             * *  * *
(^Same 5/5 strum EXCEPT on the chords with * under them, those are played twice only
 as they are transcribed! )

OUTRO: ( Is the same as the chorus, just different lyrics, so I wanted to differentiate. )

STRUCTURE: 

INTRO/VERSE x6 ( First two measures are instrumental, vocals start on third  measure. )
CHORUS x2
FILL
INTRO/VERSE x4
CHORUS 
FILL ( THEN GOES INTO BRIDGE INSTEAD OF VERSE. )
BRIDGE
CHORUS x3
OUTRO x3

Thank you come again, I transcribed this myself and it sounds 100%! A great acoustic transition 
on a piano version of the song.