Drum tablature for "Social Distortion" by "Ring Of Fire"

This tablature is awaiting approval. Log in or register to take part in the approval process.

Artist: Ring Of Fire
Piece: Social Distortion
Instrument: Drums
Submitter: Whatang
Tab provided by tTabs

Votes for approval

This Social Distortion drums tab has a net 0 votes for its approval


Tabbed with DrumBurp, a drum tab editor from www.whatang.org
Title     : Ring Of Fire
Artist    : Social Distortion
BPM       : 181
Tabbed by : Whatang
Date      : 14 October 2012

Cr - Crash
Hh - HiHat
Ri - Ride
HT - High Tom
MT - Mid Tom
Sn - Snare
FT - Floor Tom
Bd - Kick

Intro
~~~~~

Sn|--------|--------|--------|------o-|
Bd|--------|--------|--------|-----o--|
   1+2+3+4+ 1+2+3+4+ 1+2+3+4+ 1+2+3+4+ 

  /------------------------------------
Cr|x-------|--------|--------|--------|
Ri|-xxxxxxx|xxxxxxxx|xxxxxxxx|xxxxxxxx|
Sn|--o---o-|--o---o-|--o---o-|--o---o-|
Bd|o---oo--|o---oo--|o---oo--|o---oo--|
   1+2+3+4+ 1+2+3+4+ 1+2+3+4+ 1+2+3+4+ 

  ---------------------------------2x-\
Ri|xxxxxxxx|xxxxxxxx|xxxxxxxx|xxxxxxxx|
Sn|--o---o-|--o---o-|--o---o-|--o---o-|
Bd|o---oo--|o---oo--|o---oo--|o---oo--|
   1+2+3+4+ 1+2+3+4+ 1+2+3+4+ 1+2+3+4+ 


Verse 1
~~~~~~~

  /---------------------------1-3.____\4.______\
Cr|x-------|--------|--------|--------|-x--x-x-|
Hh|-xxxxxxx|xxxxxxxx|xxxxxxxx|xxxxxxxx|---x----|
Sn|--o---o-|--o---o-|--o---o-|--o---o-|-o--o-o-|
Bd|o---oo--|o---oo--|o---oo--|o---oo--|o--o----|
   1+2+3+4+ 1+2+3+4+ 1+2+3+4+ 1+2+3+4+ 1+2+3+4+ 


Chorus 1
~~~~~~~~

  /--------------------------------2x-\
Cr|--X-----|--x-----|--X-----|--x-----|
Ri|x---xxxx|x---xxxx|x---xxxx|x---xxxx|
Sn|--o---o-|--o---o-|--o---o-|--o---o-|
Bd|o---oo--|o---oo--|o---oo--|o---oo--|
   1+2+3+4+ 1+2+3+4+ 1+2+3+4+ 1+2+3+4+ 

                    /--------------2x-\        
Cr|x-------|--------|--------|--X-----|--------|
Ri|-xxxxxxx|xxxxxxxx|xxxxxxxx|x---xxxx|xxxxxxxx|
Sn|--o---o-|--o---o-|--o---o-|--o---o-|--o---o-|
Bd|o---oo--|o---oo-o|o---oo--|o---oo--|o---oo--|
   1+2+3+4+ 1+2+3+4+ 1+2+3+4+ 1+2+3+4+ 1+2+3+4+ 


Verse 2
~~~~~~~

  /---------------------------1-3.____\4.______\
Cr|x-------|--------|--------|--------|-x--x-x-|
Hh|-xxxxxxx|xxxxxxxx|xxxxxxxx|xxxxxxxx|---x----|
Sn|--o---o-|--o---o-|--o---o-|--o---o-|-o--o-o-|
Bd|o---oo--|o---oo--|o---oo--|o---oo--|o--o----|
   1+2+3+4+ 1+2+3+4+ 1+2+3+4+ 1+2+3+4+ 1+2+3+4+ 


Chorus 2
~~~~~~~~

  /--------------------------------2x-\
Cr|--X-----|--x-----|--X-----|--x-----|
Ri|x---xxxx|x---xxxx|x---xxxx|x---xxxx|
Sn|--o---o-|--o---o-|--o---o-|--o---o-|
Bd|o---oo--|o---oo--|o---oo--|o---oo--|
   1+2+3+4+ 1+2+3+4+ 1+2+3+4+ 1+2+3+4+ 

                    /--------------2x-\        
Cr|--------|--------|--------|--X-----|--------|
Ri|xxxxxxxx|xxxxxxxx|xxxxxxxx|x---xxxx|xxxxxxxx|
Sn|--o---o-|--o---o-|--o---o-|--o---o-|--o---o-|
Bd|o---oo--|o---oo-o|o---oo--|o---oo--|o---oo--|
   1+2+3+4+ 1+2+3+4+ 1+2+3+4+ 1+2+3+4+ 1+2+3+4+ 


Guitar Solo
~~~~~~~~~~~

  /---------------------------1-3.____\4.______\
Cr|x-------|--------|--------|--------|-x--x-x-|
Hh|--------|--------|--------|--------|---x----|
Ri|-xxxxxxx|xxxxxxxx|xxxxxxxx|xxxxxxxx|--------|
Sn|--o---o-|--o---o-|--o---o-|--o---o-|-o--o-o-|
Bd|o---oo--|o---oo--|o---oo--|o---oo--|o--o----|
   1+2+3+4+ 1+2+3+4+ 1+2+3+4+ 1+2+3+4+ 1+2+3+4+ 


Chorus 3
~~~~~~~~

  /--------------------------------2x-\
Cr|--X-----|--x-----|--X-----|--x-----|
Ri|x---xxxx|x---xxxx|x---xxxx|x---xxxx|
Sn|--o---o-|--o---o-|--o---o-|--o---o-|
Bd|o---oo--|o---oo--|o---oo--|o---oo--|
   1+2+3+4+ 1+2+3+4+ 1+2+3+4+ 1+2+3+4+ 

  /--------------2x-\                          
Cr|--------|--------|--------|--X-----|--------|
Ri|xxxxxxxx|xxxxxxxx|xxxxxxxx|x---xxxx|xxxxxxxx|
Sn|--o---o-|--o---o-|--o---o-|--o---o-|---o-o-o|
Bd|o---oo--|o---oo--|o---oo--|o---oo--|o-o-o-o-|
   1+2+3+4+ 1+2+3+4+ 1+2+3+4+ 1+2+3+4+ 1+2+3+4+ 


Verse 3
~~~~~~~

  /---------------------------1-3.____\4.______\
Cr|x-------|--------|--------|--------|-x--x-x-|
Hh|-xxxxxxx|xxxxxxxx|xxxxxxxx|xxxxxxxx|---x----|
Sn|--o---o-|--o---o-|--o---o-|--o---o-|-o--o-o-|
Bd|o---oo--|o---oo--|o---oo--|o---oo--|o--o----|
   1+2+3+4+ 1+2+3+4+ 1+2+3+4+ 1+2+3+4+ 1+2+3+4+ 


Chorus 4
~~~~~~~~

  /--------------------------------2x-\
Cr|--X-----|--x-----|--X-----|--x-----|
Ri|x---xxxx|x---xxxx|x---xxxx|x---xxxx|
Sn|--o---o-|--o---o-|--o---o-|--o---o-|
Bd|o---oo--|o---oo--|o---oo--|o---oo--|
   1+2+3+4+ 1+2+3+4+ 1+2+3+4+ 1+2+3+4+ 

                    /--------------2x-\        
Cr|--------|--------|--------|--X-----|-X------|
Ri|xxxxxxxx|xxxxxxxx|xxxxxxxx|x---xxxx|--------|
HT|--------|--------|--------|--------|---oo---|
MT|--------|--------|--------|--------|-----oo-|
Sn|--o---o-|--o---o-|--o---o-|--o---o-|-o-----o|
Bd|o---oo--|o---oo--|o---oo--|o---oo--|o-------|
   1+2+3+4+ 1+2+3+4+ 1+2+3+4+ 1+2+3+4+ 1+2+3+4+ 


Chorus 5 / Outro
~~~~~~~~~~~~~~~~

Cr|x-------|--------|------x-|------x-|
Ri|-xxxxxxx|xxxxxxxx|xxxxxx-x|xxxxxx-x|
Sn|--o---o-|--o---o-|--o---o-|--o---o-|
Bd|o---oo--|o---oo--|o---oo--|o---oo--|
   1+2+3+4+ 1+2+3+4+ 1+2+3+4+ 1+2+3+4+ 

Cr|------x-|------x-|------x-|--------|
Ri|xxxxxx-x|xxxxxx-x|xxxxxx-x|xxxxxxxx|
Sn|--o---o-|--o---o-|--o---o-|--o---o-|
Bd|o---oo--|o---oo--|o---oo--|o---oo--|
   1+2+3+4+ 1+2+3+4+ 1+2+3+4+ 1+2+3+4+ 

Cr|x-------|--------|--------|--X-----|
Ri|-xxxxxxx|xxxxxxxx|xxxxxxxx|x---xxxx|
Sn|--o---o-|--o---o-|--o---o-|--o---o-|
Bd|o---oo--|o---oo--|o---oo--|o---oo--|
   1+2+3+4+ 1+2+3+4+ 1+2+3+4+ 1+2+3+4+ 

Cr|--------|--x-----|--------|x-------|
Ri|xxxxxxxx|xx-xxxxx|xxxxxxxx|-xxxxxxx|
Sn|--o---o-|--o---o-|--o---o-|--o---o-|
Bd|o---oo--|o---oo--|o---oo-o|o---oo--|
   1+2+3+4+ 1+2+3+4+ 1+2+3+4+ 1+2+3+4+ 

Cr|--X-----|--X-----|--------|x-------|
Ri|x---xxxx|x---xxxx|xxxxxxxx|-xxxxxxx|
Sn|--o---o-|--o---o-|--o---o-|--o---o-|
Bd|o---oo--|o---oo--|o---oo--|o---oo--|
   1+2+3+4+ 1+2+3+4+ 1+2+3+4+ 1+2+3+4+ 

Cr|----X-X-|--------|X-------|--------|
Ri|xxxx----|--------|--------|--------|
Sn|--o-----|--------|--------|--------|
Bd|oo--o-o-|--------|o-------|--------|
   1+2+3+4+ 1+2+3+4+ 1+2+3+4+ 1+2+3+4+ 

Tabbed with DrumBurp, a drum tab editor from www.whatang.org