Drum tablature for "To Treno" by "Trypes"

This tablature is awaiting approval. Log in or register to take part in the approval process.

Artist: Trypes
Piece: To Treno
Instrument: Drums
Submitter: guscokes
Tab provided by tTabs

Votes for approval

This To Treno drums tab has a net 1 vote for its approval


Trypes - To treno
Drum Tabs
By guscokes
http://www.youtube.com/watch?v=IJ4dwPlaZ84

Tempo = 120bpm

 |1-^-2-^-3-^-4-^-|1-^-2-^-3-^-4-^-|1-^-2-^-3-^-4-^-|1-^-2-^-3-^-4-^-|
H|----------------|----------------|----------------|--o-o-o-o-o-----|
t|----------------|----------------|----------------|--------------xx|
S|----------------|----------------|----------------|--x-----x---xx--|
B|----------------|----------------|----------------|----x-x---x-----|

 |1-^-2-^-3-^-4-^-|1-^-2-^-3-^-4-^-|1-^-2-^-3-^-4-^-|1-^-2-^-3-^-4-^-|
C|1---------------|----------------|----------------|--------------2-|
H|--x-x-x-x-x-x-x-|x-x-x-x-x-x-x-x-|x-x-x-x-x-x-x-x-|x-x-x-x-x-x-x---|
S|----x-------x---|----x-------x---|----x-------x---|----x-------x---|
B|x-----x-x-----x-|x-----x-x-----x-|x-----x-x-----x-|x-----x-x--x--x-|

 |1-^-2-^-3-^-4-^-|1-^-2-^-3-^-4-^-|1-^-2-^-3-^-4-^-|1-^-2-^-3-^-4-^-|
C|1---------------|----------------|s---------------|----------------|
H|--x-x-x-x-x-x-x-|x-x-x-x-x-x-x-x-|--x-x-x-x-x-x-x-|o---------------|
T|----------------|----------------|----------------|------------xxxx|
t|----------------|----------------|----------------|----------xx----|
S|----x-------x---|----x-------x---|----x-------x---|--x-xxxxxx------|
B|x-----x-x-----x-|x-----x-x-----x-|x-----x-x-----x-|x---------------|

 |1-^-2-^-3-^-4-^-|1-^-2-^-3-^-4-^-|1-^-2-^-3-^-4-^-|1-^-2-^-3-^-4-^-|
C|2---------------|----------------|----------------|------------s---|
H|--x-x-x-x-x-x-x-|x-x-x-x-x-o-x---|x-x-x-x-x-x-x-x-|x-x-x-x-x-x---x-|
t|----------------|--------------x-|----------------|----------------|
S|----x-------x---|----x-------x---|----x-------x---|----x-------X---|
B|x-----x-x-----x-|x-----x-x-------|x-----x-x-----x-|x-----x-x-----x-|

 |1-^-2-^-3-^-4-^-|1-^-2-^-3-^-4-^-|1-^-2-^-3-^-4-^-|1-^-2-^-3-^-4-^-|
C|----------------|----------------|----------------|--------s-------|
H|x-x-x-x-x-x-x-x-|x-x-x-x-x-o-x---|x-x-x-x-x-x-x-x-|x-x-x-x---------|
t|----------------|--------------x-|----------------|----------------|
S|----x-------x---|----x-------x---|----x-------x---|----X-----x-xxxx|
B|x-----x-x-----x-|x-----x-x-------|x-----x-x-----x-|x-----x-x-------|

 |1-^-2-^-3-^-4-^-|1-^-2-^-3-^-4-^-|1-^-2-^-3-^-4-^-|1-^-2-^-3-^-4-^-|
C|1---------------|----------------|----------------|------------s---|
H|--x-x-x-x-x-x-x-|x-x-x-x-x-o-x---|x-x-x-x-x-x-x-x-|x-x-x-x-x-x---x-|
t|----------------|--------------x-|----------------|----------------|
S|----x-------x---|----x-------x---|----x-------x---|----x-------X---|
B|x-----x-x-----x-|x-----x-x-------|x-----x-x-----x-|x-----x-x-----x-|

 |1-^-2-^-3-^-4-^-|1-^-2-^-3-^-4-^-|1-^-2-^-3-^-4-^-|1-^-2-^-3-^-4-^-|
C|----------------|----------------|----------------|--------2-------|
H|x-x-x-x-x-x-x-x-|x-x-x-x-x-o-x---|x-x-x-x-x-x-x-x-|x-x-x-x---------|
t|----------------|--------------x-|----------------|--------------xx|
S|----x-------x---|----x-------x---|----x-------x---|----x-----x-xx--|
B|x-----x-x-----x-|x-----x-x-------|x-----x-x-----x-|x-----x-x-------|

 |1-^-2-^-3-^-4-^-|1-^-2-^-3-^-4-^-|1-^-2-^-3-^-4-^-|1-^-2-^-3-^-4-^-|
C|1---------------|----------------|----------------|------------s---|
H|--x-x-x-x-x-x-x-|x-x-x-x-x-o-x-x-|x-x-x-x-x-x-x-x-|x-x-x-x-x-x---x-|
t|----------------|--------------x-|----------------|----------------|
S|----x-------x---|----x-------x---|----x-------x---|----x-------X---|
B|x-----x-x-----x-|x-----x-x-------|x-----x-x-----x-|x-----x-x-----x-|

 |1-^-2-^-3-^-4-^-|1-^-2-^-3-^-4-^-|1-^-2-^-3-^-4-^-|1-^-2-^-3-^-4-^-|
C|----------------|----------------|----------------|----------------|
H|x-x-x-x-x-x-x-x-|x-x-x-x-x-o-x---|x-x-x-x-o---o---|o---o---o-------|
t|----------------|--------------x-|----------------|--------------xx|
S|----x-------x---|----x-------x---|----x-------x---|----x-----x-xx--|
B|x-----x-x-----x-|x-----x-x-------|x-----x-x-----x-|x-----x-x-------|

 |1-^-2-^-3-^-4-^-|1-^-2-^-3-^-4-^-|1-^-2-^-3-^-4-^-|1-^-2-^-3-^-4-^-|
C|1---------------|2---------------|s---------------|----------------|
H|--x-x-x-x-x-x-x-|--x-x-x-x-x-x-x-|--x-x-x-x-x-x-x-|x-x-x-x-x-x-x-x-|
S|----x-------x---|----x-------x---|----x-------x---|----x-------x---|
B|x-------x-x---x-|x-------x-x---x-|x-----x-x-----x-|x-----x-x--x--x-|

 |1-^-2-^-3-^-4-^-|1-^-2-^-3-^-4-^-|1-^-2-^-3-^-4-^-|1-^-2-^-3-^-4-^-|
C|1---------------|1---------------|2---------------|----------------|
H|--x-x-x-x-x-x-x-|--x-x-x-x-x-x-x-|--x-x-x-x-x-x-x-|x-x-x-x---o-----|
t|----------------|----------------|----------------|--------------xx|
S|----x-------x---|----x-------x---|----x-------x---|----x---xx-xxx--|
B|x-------x-x---x-|x-------x-x---x-|x-----x-x-----x-|x-----x---------|

 |1-^-2-^-3-^-4-^-|1-^-2-^-3-^-4-^-|1-^-2-^-3-^-4-^-|1-^-2-^-3-^-4-^-|
C|1---------------|1---------------|2---------------|1-------2-------|
H|--x-x-x-x-x-x-x-|--x-x-x-x-x-x-x-|--x-x-x-x-x-x-x-|--x-x-x---------|
S|----x-------x---|----x-------x---|----x-------x---|----x-----x-x-x-|
B|x-------x-x---x-|x-------x-x---x-|x-------x-x---x-|x-------x-------|

 |1-^-2-^-3-^-4-^-|1-^-2-^-3-^-4-^-|1-^-2-^-3-^-4-^-|1-^-2-^-3-^-4-^-|
C|1---------------|----------------|----------------|1---------------|
H|--x-x-x-x-x-x-x-|x-x-x-x-x-x-x-x-|x-x-x-x-x-x-x-x-|x-x-x-x---------|
T|----------------|----------------|----------------|--------------xx|
t|----------------|----------------|----------------|----------xxxx--|
S|----x-------x---|----x-------x---|----x-------x---|--x-x---xx------|
B|x-----x-x-----x-|x-----x-x-----x-|x-----x-x-----x-|x-----x---------|

 |1-^-2-^-3-^-4-^-|1-^-2-^-3-^-4-^-|1-^-2-^-3-^-4-^-|1-^-2-^-3-^-4-^-|
C|1---------------|----------------|----------------|--------------2-|
H|----r-r-r-r-r-r-|r-r-r-r-r-r-r-r-|r-r-r-r-r-r-r-r-|r-r-r-r-r-r-r---|
S|----x-------x---|----x-------x---|----x-------x---|----x-------x---|
B|x-----x-x-----x-|x-----x-x-----x-|x-----x-x-----x-|x-----x-x-----x-|

 |1-^-2-^-3-^-4-^-|1-^-2-^-3-^-4-^-|1-^-2-^-3-^-4-^-|1-^-2-^-3-^-4-^-|
C|1---------------|----------------|1---------------|--------1-------|
H|----r-r-r-r-r-r-|r-r-r-r-r-r-r-r-|----r-r-r-r-r-r-|r-r-r-r---------|
t|----------------|----------------|----------------|--------------xx|
S|----x-------x---|----x-------x---|----x-------x---|----x-----x-xx--|
B|x-----x-x-----x-|x-----x-x-----x-|x-----x-x-----x-|x-----x-x-------|

 |1-^-2-^-3-^-4-^-|1-^-2-^-3-^-4-^-|1-^-2-^-3-^-4-^-|1-^-2-^-3-^-4-^-|
C|1---------------|----------------|----------------|------------s---|
H|--x-x-x-x-x-x-x-|x-x-x-x-x-o-x---|x-x-x-x-x-x-x-x-|x-x-x-x-x-x---x-|
t|----------------|--------------x-|----------------|----------------|
S|----x-------x---|----x-------x---|----x-------x---|----x-------X---|
B|x-----x-x-----x-|x-----x-x-------|x-----x-x-----x-|x-----x-x-----x-|

 |1-^-2-^-3-^-4-^-|1-^-2-^-3-^-4-^-|1-^-2-^-3-^-4-^-|1-^-2-^-3-^-4-^-|
C|----------------|----------------|----------------|----------------|
H|x-x-x-x-x-x-x-x-|x-x-x-x-x-o-x---|x-x-x-x-x-x-x-x-|x-x-x-x---------|
t|----------------|--------------x-|----------------|----------------|
S|----x-------x---|----x-------x---|----x-------x---|----x---xx--f---|
B|x-----x-x-----x-|x-----x-x-------|x-----x-x-----x-|x-----x---xx--x-|

 |1-^-2-^-3-^-4-^-|1-^-2-^-3-^-4-^-|1-^-2-^-3-^-4-^-|1-^-2-^-3-^-4-^-|
C|1---------------|----------------|----------------|------------s---|
H|--x-x-x-x-x-x-x-|x-x-x-x-x-o-x---|x-x-x-x-x-x-x-x-|x-x-x-x-x-x---x-|
t|----------------|--------------x-|----------------|----------------|
S|----x-------x---|----x-------x---|----x-------x---|----x-------X---|
B|x-----x-x-----x-|x-----x-x-------|x-----x-x-----x-|x-----x-x-----x-|

 |1-^-2-^-3-^-4-^-|1-^-2-^-3-^-4-^-|1-^-2-^-3-^-4-^-|1-^-2-^-3-^-4-^-|
C|----------------|----------------|----------------|----------------|
H|x-x-x-x-x-x-x-x-|x-x-x-x-x-o-x---|x-x-x-x-o---o---|o---o---o-------|
t|----------------|--------------x-|----------------|--------------xx|
S|----x-------x---|----x-------x---|----x-------x---|----x-----x-xx--|
B|x-----x-x-----x-|x-----x-x-------|x-----x-x-----x-|x-----x-x-------|

 |1-^-2-^-3-^-4-^-|1-^-2-^-3-^-4-^-|1-^-2-^-3-^-4-^-|1-^-2-^-3-^-4-^-|
C|1---------------|2---------------|s---------------|----------------|
H|--x-x-x-x-x-x-x-|--x-x-x-x-x-x-x-|--x-x-x-x-x-x-x-|x-x-x-x-x-x-x-x-|
S|----x-------x---|----x-------x---|----x-------x---|----x-------x---|
B|x-------x-x---x-|x-------x-x---x-|x-----x-x-----x-|x-----x-x--x--x-|

 |1-^-2-^-3-^-4-^-|1-^-2-^-3-^-4-^-|1-^-2-^-3-^-4-^-|1-^-2-^-3-^-4-^-|
C|1---------------|1---------------|2---------------|----------------|
H|--x-x-x-x-x-x-x-|--x-x-x-x-x-x-x-|--x-x-x-x-x-x-x-|x-x-x-x---ο-----|
t|----------------|----------------|----------------|--------------xx|
S|----x-------x---|----x-------x---|----x-------x---|----x---xx-xxx--|
B|x-------x-x---x-|x-------x-x---x-|x-----x-x-----x-|x-----x---------|

 |1-^-2-^-3-^-4-^-|1-^-2-^-3-^-4-^-|1-^-2-^-3-^-4-^-|1-^-2-^-3-^-4-^-|
C|1---------------|1---------------|2---------------|1-------2-------|
H|--x-x-x-x-x-x-x-|--x-x-x-x-x-x-x-|--x-x-x-x-x-x-x-|--x-x-x---------|
S|----x-------x---|----x-------x---|----x-------x---|----x-----x-x-x-|
B|x-------x-x---x-|x-------x-x---x-|x-------x-x---x-|x-------x-------|

 |1-^-2-^-3-^-4-^-|1-^-2-^-3-^-4-^-|1-^-2-^-3-^-4-^-|1-^-2-^-3-^-4-^-|
C|1---------------|----------------|----------------|--------s------2|
H|--x-x-x-x-x-x-x-|x-x-x-x-x-x-x-x-|x-x-x-x-x-x-x-x-|x-x-x-x---------|
S|----x-------x---|----x-------x---|----x-------x---|----x-----xxxx--|
B|x-----x-x-----x-|x-----x-x-----x-|x-----x-x-----x-|x-----x-x-----x-|

 |1-^-2-^-3-^-4-^-|1-^-2-^-3-^-4-^-|1-^-2-^-3-^-4-^-|1-^-2-^-3-^-4-^-|
C|1---------------|--------------2-|1---------------|----------------|
H|--x-x-x-x-x-x-x-|x-x-x-x-x-x-x-x-|x-x-x-x-x-x-x-x-|x-x-x-o---------|
T|----------------|----------------|----------------|--------------xx|
t|----------------|----------------|----------------|----------xxxx--|
S|----x-------x---|----x-------x---|----x-------x---|----x---xx------|
B|x-----x-x-----x-|x-----x-x-----x-|x-----x-x-----x-|x-----x---------|

 |1-^-2-^-3-^-4-^-|1-^-2-^-3-^-4-^-|1-^-2-^-3-^-4-^-|1-^-2-^-3-^-4-^-|
C|1---------------|----------------|----------------|----------------|
H|----r-r-r-r-r-r-|r-r-r-r-r-r-r-r-|-r--r-r-r-r-r-r-|r-r-r-r-r-------|
S|----x-------x---|----x-------x---|----x-------x---|----x-------f---|
B|x-----x-x-----x-|x-----x-x-----x-|x-----x-x-----x-|x-----x-x--x--x-|

 |1-^-2-^-3-^-4-^-|1-^-2-^-3-^-4-^-|1-^-2-^-3-^-4-^-|1-^-2-^-3-^-4-^-|
C|1---------------|----------------|----------------|----------------|
H|----r-r-r-r-r-r-|r-r-r-r-r-r-r-r-|r-r-r-r-r-r-r-r-|r-r-r-r---------|
S|----x-------x---|----x-------x---|----x-------x---|----x---xx--f---|
B|x-----x-x-----x-|x-----x-x-----x-|x-----x-x-----x-|x-----x---xx--x-|

 |1-^-2-^-3-^-4-^-|1-^-2-^-3-^-4-^-|1-^-2-^-3-^-4-^-|1-^-2-^-3-^-4-^-|
C|1---------------|----------------|----------------|---------------2|
H|----r-r-r-r-r-r-|r-r-r-r-r-r-r-r-|r-r-r-r-r-r-r-r-|r-r-r-r---------|
S|----x-------x---|----x-------x---|----x-------x---|----x---ddddX---|
B|x-----x-x-----x-|x-----x-x-----x-|x-----x-x-----x-|x-----x-------x-|

 |1-^-2-^-3-^-4-^-|1-^-2-^-3-^-4-^-|1-^-2-^-3-^-4-^-|1-^-2-^-3-^-4-^-|
C|1---------------|----------------|1---------------|s---------------|
H|----r-r-r-r-r-r-|r-r-r-r-r-r-r-r-|--r-r-r-r-r-r-r-|----------------|
T|----------------|----------------|----------------|------------xxxx|
t|----------------|----------------|----------------|----------xx----|
S|----x-------x---|----x-------x---|----x-------x---|--x-xxxxxx------|
B|x-----x-x-----x-|x-----x-x-----x-|x-----x-x-----x-|x---------------|

 |1-^-2-^-3-^-4-^-|1-^-2-^-3-^-4-^-|1-^-2-^-3-^-4-^-|1-^-2-^-3-^-4-^-|
C|2-------------2-|1-------------2-|1-------------2-|1-------------2-|
H|----r-r-r-r-r---|--r-r-r-r-r-r---|--r-r-r-r-r-r---|--r-r-r-r-r-r-r-|
S|----x-------x---|----x-------x---|----x-------x---|----x-------x---|
B|x-----x-x-----x-|x-----x-x-----x-|x-----x-x-----x-|x-----x-x-----x-|

 |1-^-2-^-3-^-4-^-|1-^-2-^-3-^-4-^-|1-^-2-^-3-^-4-^-|1-^-2-^-3-^-4-^-|
C|1-------------2-|1-----------2---|----------------|--------1-------|
H|----r-r-r-r-r---|--r-r-r-r-r-----|----------------|----------------|
F|----------------|----------------|x-x-x-x-x-x-x-x-|x-x-x-x-----xxxx|
S|----x-------x---|----x-------x---|x-x-x-x-x-x-x-x-|x-x-x-x---xx----|
B|x-----x-x-----x-|x-----x-x-------|----------------|--------x-------|
                                   |=======crescendo=======|
 
 |1-^-2-^-3-^-4-^-|1-^-2-^-3-^-4-^-|1-^-2-^-3-^-4-^-|1-^-2-^-3-^-4-^-|
C|2---------------|1---------------|2---------------|--------------1-|
H|----r-r-r-r-r---|--r-r-r-r-r-r---|--r-r-r-r-r-r-r-|--r-r-r-r-r-r---|
S|----x-------x---|----x-------x---|----x-------x---|----x-------x---|
B|x-----x-x-----x-|x-----x-x-----x-|x-----x-x-----x-|x-----x-x--x--x-|

 |1-^-2-^-3-^-4-^-|1-^-2-^-3-^-4-^-|1-^-2-^-3-^-4-^-|1-^-2-^-3-^-4-^-|
C|2---------------|1---------------|2---------------|----------------|
H|----r-r-r-r-r---|--r-r-r-r-r-r---|--r-r-r-r-r-r-r-|r-r-r-b---b-----|
t|----------------|----------------|----------------|--------------xx|
S|----x-------x---|----x-------x---|----x-------x---|----x---xx-xxx--|
B|x-----x-x-----x-|x-----x-x-----x-|x-----x-x-----x-|x-----x---------|

 |1-^-2-^-3-^-4-^-|1-^-2-^-3-^-4-^-|1-^-2-^-3-^-4-^-|1-^-2-^-3-^-4-^-|
C|1---------------|1---------------|2---------------|1-------2-------|
H|--x-x-x-x-x-x-x-|--x-x-x-x-x-x-x-|--x-x-x-x-x-x-x-|--x-x-x---------|
S|----x-------x---|----x-------x---|----x-------x---|----x-----x-x-x-|
B|x-------x-x---x-|x-------x-x---x-|x-------x-x---x-|x-------x-------|

 |1-^-2-^-3-^-4-^-|1-^-2-^-3-^-4-^-|1-^-2-^-3-^-4-^-|1-^-2-^-3-^-4-^-|
C|1---------------|----------------|----------------|--------s------2|
H|--x-x-x-x-x-x-x-|x-x-x-x-x-x-x-x-|x-x-x-x-x-x-x-x-|x-x-x-x---------|
S|----x-------x---|----x-------x---|----x-------x---|----x-----xxxx--|
B|x-----x-x-----x-|x-----x-x-----x-|x-----x-x-----x-|x-----x-x-----x-|

 |1-^-2-^-3-^-4-^-|1-^-2-^-3-^-4-^-|1-^-2-^-3-^-4-^-|1-^-2-^-3-^-4-^-|
C|1---------------|--------------2-|1---------------|----------------|
H|--x-x-x-x-x-x-x-|x-x-x-x-x-x-x-x-|x-x-x-x-x-x-x-x-|x-x-x-x---------|
S|----x-------x---|----x-------x---|----x-------x---|----x---f---f---|
B|x-----x-x-----x-|x-----x-x-----x-|x-----x-x-----x-|x-----x---x---x-|

 |1-^-2-^-3-^-4-^-||
C|1---------------||
S|x---------------||
B|x---------------||

LEGEND
-----------------------------------------------------------------
B = BassDrum               S = SnareDrum              H = HiHat		
t = Tom 1                  T = Tom 2                  C = Cymbal
x = normal hit             X = snare rim shot         f = flam		
1 = Cymbal 1               2 = Cymbal 2               r = Ride		
b = Bell                   o = Open HiHat             s = Splash
d = double hit